  0
SECTION
  2
HEADER
  9
$ACADVER
  1
AC1015
  9
$ACADMAINTVER
 70
     6
  9
$DWGCODEPAGE
  3
ANSI_1254
  9
$INSBASE
 10
0.0
 20
0.0
 30
0.0
  9
$EXTMIN
 10
0.0
 20
0.0
 30
0.0
  9
$EXTMAX
 10
279.4
 20
215.9
 30
0.0
  9
$LIMMIN
 10
0.0
 20
0.0
  9
$LIMMAX
 10
279.4
 20
215.9
  9
$ORTHOMODE
 70
     0
  9
$REGENMODE
 70
     1
  9
$FILLMODE
 70
     1
  9
$QTEXTMODE
 70
     0
  9
$MIRRTEXT
 70
     1
  9
$LTSCALE
 40
1.0
  9
$ATTMODE
 70
     1
  9
$TEXTSIZE
 40
3.5
  9
$TRACEWID
 40
1.0
  9
$TEXTSTYLE
  7
Standard
  9
$CLAYER
  8
0
  9
$CELTYPE
  6
ByLayer
  9
$CECOLOR
 62
   256
  9
$CELTSCALE
 40
1.0
  9
$DISPSILH
 70
     0
  9
$DIMSCALE
 40
1.0
  9
$DIMASZ
 40
3.5
  9
$DIMEXO
 40
1.0
  9
$DIMDLI
 40
3.75
  9
$DIMRND
 40
0.0
  9
$DIMDLE
 40
0.0
  9
$DIMEXE
 40
1.0
  9
$DIMTP
 40
0.0
  9
$DIMTM
 40
0.0
  9
$DIMTXT
 40
3.5
  9
$DIMCEN
 40
2.5
  9
$DIMTSZ
 40
0.0
  9
$DIMTOL
 70
     0
  9
$DIMLIM
 70
     0
  9
$DIMTIH
 70
     1
  9
$DIMTOH
 70
     1
  9
$DIMSE1
 70
     0
  9
$DIMSE2
 70
     0
  9
$DIMTAD
 70
     1
  9
$DIMZIN
 70
     0
  9
$DIMBLK
  1

  9
$DIMASO
 70
     1
  9
$DIMSHO
 70
     1
  9
$DIMPOST
  1

  9
$DIMAPOST
  1

  9
$DIMALT
 70
     0
  9
$DIMALTD
 70
     3
  9
$DIMALTF
 40
0.0393700787
  9
$DIMLFAC
 40
1.0
  9
$DIMTOFL
 70
     1
  9
$DIMTVP
 40
0.0
  9
$DIMTIX
 70
     0
  9
$DIMSOXD
 70
     0
  9
$DIMSAH
 70
     0
  9
$DIMBLK1
  1

  9
$DIMBLK2
  1

  9
$DIMSTYLE
  2
ISO-25
  9
$DIMCLRD
 70
     0
  9
$DIMCLRE
 70
     0
  9
$DIMCLRT
 70
     0
  9
$DIMTFAC
 40
1.0
  9
$DIMGAP
 40
1.524
  9
$DIMJUST
 70
     0
  9
$DIMSD1
 70
     0
  9
$DIMSD2
 70
     0
  9
$DIMTOLJ
 70
     0
  9
$DIMTZIN
 70
     0
  9
$DIMALTZ
 70
     0
  9
$DIMALTTZ
 70
     0
  9
$DIMUPT
 70
     0
  9
$DIMDEC
 70
     2
  9
$DIMTDEC
 70
     2
  9
$DIMALTU
 70
     2
  9
$DIMALTTD
 70
     3
  9
$DIMTXSTY
  7
Standard
  9
$DIMAUNIT
 70
     0
  9
$DIMADEC
 70
     2
  9
$DIMALTRND
 40
0.0
  9
$DIMAZIN
 70
     0
  9
$DIMDSEP
 70
    44
  9
$DIMATFIT
 70
     3
  9
$DIMFRAC
 70
     0
  9
$DIMLDRBLK
  1

  9
$DIMLUNIT
 70
     2
  9
$DIMLWD
 70
    -2
  9
$DIMLWE
 70
    -2
  9
$DIMTMOVE
 70
     0
  9
$LUNITS
 70
     2
  9
$LUPREC
 70
     2
  9
$SKETCHINC
 40
1.0
  9
$FILLETRAD
 40
10.0
  9
$AUNITS
 70
     0
  9
$AUPREC
 70
     2
  9
$MENU
  1
.
  9
$ELEVATION
 40
0.0
  9
$PELEVATION
 40
0.0
  9
$THICKNESS
 40
0.0
  9
$LIMCHECK
 70
     0
  9
$CHAMFERA
 40
0.0
  9
$CHAMFERB
 40
0.0
  9
$CHAMFERC
 40
0.0
  9
$CHAMFERD
 40
0.0
  9
$SKPOLY
 70
     0
  9
$TDCREATE
 40
2459741.606101921
  9
$TDUCREATE
 40
2459741.481101921
  9
$TDUPDATE
 40
2459741.606102107
  9
$TDUUPDATE
 40
2459741.481102107
  9
$TDINDWG
 40
0.0000000116
  9
$TDUSRTIMER
 40
0.0000000116
  9
$USRTIMER
 70
     1
  9
$ANGBASE
 50
0.0
  9
$ANGDIR
 70
     0
  9
$PDMODE
 70
     0
  9
$PDSIZE
 40
-1.0
  9
$PLINEWID
 40
0.0
  9
$SPLFRAME
 70
     0
  9
$SPLINETYPE
 70
     6
  9
$SPLINESEGS
 70
     8
  9
$HANDSEED
  5
102
  9
$SURFTAB1
 70
     6
  9
$SURFTAB2
 70
     6
  9
$SURFTYPE
 70
     6
  9
$SURFU
 70
     6
  9
$SURFV
 70
     6
  9
$UCSBASE
  2

  9
$UCSNAME
  2

  9
$UCSORG
 10
0.0
 20
0.0
 30
0.0
  9
$UCSXDIR
 10
1.0
 20
0.0
 30
0.0
  9
$UCSYDIR
 10
0.0
 20
1.0
 30
0.0
  9
$UCSORTHOREF
  2

  9
$UCSORTHOVIEW
 70
     0
  9
$UCSORGTOP
 10
0.0
 20
0.0
 30
0.0
  9
$UCSORGBOTTOM
 10
0.0
 20
0.0
 30
0.0
  9
$UCSORGLEFT
 10
0.0
 20
0.0
 30
0.0
  9
$UCSORGRIGHT
 10
0.0
 20
0.0
 30
0.0
  9
$UCSORGFRONT
 10
0.0
 20
0.0
 30
0.0
  9
$UCSORGBACK
 10
0.0
 20
0.0
 30
0.0
  9
$PUCSBASE
  2

  9
$PUCSNAME
  2

  9
$PUCSORG
 10
0.0
 20
0.0
 30
0.0
  9
$PUCSXDIR
 10
1.0
 20
0.0
 30
0.0
  9
$PUCSYDIR
 10
0.0
 20
1.0
 30
0.0
  9
$PUCSORTHOREF
  2

  9
$PUCSORTHOVIEW
 70
     0
  9
$PUCSORGTOP
 10
0.0
 20
0.0
 30
0.0
  9
$PUCSORGBOTTOM
 10
0.0
 20
0.0
 30
0.0
  9
$PUCSORGLEFT
 10
0.0
 20
0.0
 30
0.0
  9
$PUCSORGRIGHT
 10
0.0
 20
0.0
 30
0.0
  9
$PUCSORGFRONT
 10
0.0
 20
0.0
 30
0.0
  9
$PUCSORGBACK
 10
0.0
 20
0.0
 30
0.0
  9
$USERI1
 70
     0
  9
$USERI2
 70
     0
  9
$USERI3
 70
     0
  9
$USERI4
 70
     0
  9
$USERI5
 70
     0
  9
$USERR1
 40
0.0
  9
$USERR2
 40
0.0
  9
$USERR3
 40
0.0
  9
$USERR4
 40
0.0
  9
$USERR5
 40
0.0
  9
$WORLDVIEW
 70
     1
  9
$SHADEDGE
 70
     3
  9
$SHADEDIF
 70
    70
  9
$TILEMODE
 70
     1
  9
$MAXACTVP
 70
    64
  9
$PINSBASE
 10
0.0
 20
0.0
 30
0.0
  9
$PLIMCHECK
 70
     0
  9
$PEXTMIN
 10
1.0000000000E+20
 20
1.0000000000E+20
 30
1.0000000000E+20
  9
$PEXTMAX
 10
-1.0000000000E+20
 20
-1.0000000000E+20
 30
-1.0000000000E+20
  9
$PLIMMIN
 10
0.0
 20
0.0
  9
$PLIMMAX
 10
420.0
 20
297.0
  9
$UNITMODE
 70
     0
  9
$VISRETAIN
 70
     1
  9
$PLINEGEN
 70
     0
  9
$PSLTSCALE
 70
     1
  9
$TREEDEPTH
 70
  3020
  9
$CMLSTYLE
  2
Standard
  9
$CMLJUST
 70
     0
  9
$CMLSCALE
 40
20.0
  9
$PROXYGRAPHICS
 70
     1
  9
$MEASUREMENT
 70
     1
  9
$CELWEIGHT
370
    -1
  9
$ENDCAPS
280
     0
  9
$JOINSTYLE
280
     0
  9
$LWDISPLAY
290
     1
  9
$INSUNITS
 70
     4
  9
$HYPERLINKBASE
  1

  9
$STYLESHEET
  1

  9
$XEDIT
290
     1
  9
$CEPSNTYPE
380
     0
  9
$PSTYLEMODE
290
     1
  9
$FINGERPRINTGUID
  2
{26cbcbf6-cb49-4bf0-a38e-3aee5435c100}
  9
$VERSIONGUID
  2
{FAEB1C32-E019-11D5-929B-00C0DF256EC4}
  9
$EXTNAMES
290
     1
  9
$PSVPSCALE
 40
0.0
  9
$OLESTARTUP
290
     0
  0
ENDSEC
  0
SECTION
  2
CLASSES
  0
CLASS
  1
ACDBDICTIONARYWDFLT
  2
AcDbDictionaryWithDefault
  3
ObjectDBX Classes
 90
        0
280
     0
281
     0
  0
CLASS
  1
VISUALSTYLE
  2
AcDbVisualStyle
  3
ObjectDBX Classes
 90
     4095
280
     0
281
     0
  0
CLASS
  1
MATERIAL
  2
AcDbMaterial
  3
ObjectDBX Classes
 90
     1153
280
     0
281
     0
  0
CLASS
  1
SCALE
  2
AcDbScale
  3
ObjectDBX Classes
 90
     1153
280
     0
281
     0
  0
CLASS
  1
TABLESTYLE
  2
AcDbTableStyle
  3
ObjectDBX Classes
 90
     4095
280
     0
281
     0
  0
CLASS
  1
MLEADERSTYLE
  2
AcDbMLeaderStyle
  3
ACDB_MLEADERSTYLE_CLASS
 90
     4095
280
     0
281
     0
  0
CLASS
  1
SUN
  2
AcDbSun
  3
SCENEOE
 90
     1153
280
     0
281
     0
  0
CLASS
  1
ACDBPLACEHOLDER
  2
AcDbPlaceHolder
  3
ObjectDBX Classes
 90
        0
280
     0
281
     0
  0
CLASS
  1
LAYOUT
  2
AcDbLayout
  3
ObjectDBX Classes
 90
        0
280
     0
281
     0
  0
ENDSEC
  0
SECTION
  2
TABLES
  0
TABLE
  2
VPORT
  5
8
330
0
100
AcDbSymbolTable
 70
     1
  0
VPORT
  5
29
330
8
100
AcDbSymbolTableRecord
100
AcDbViewportTableRecord
  2
*Active
 70
     0
 10
0.0
 20
0.0
 11
1.0
 21
1.0
 12
139.7
 22
107.95
 13
0.0
 23
0.0
 14
10.0
 24
10.0
 15
10.0
 25
10.0
 16
0.0
 26
0.0
 36
1.0
 17
0.0
 27
0.0
 37
0.0
 40
215.9
 41
1.2941176471
 42
50.0
 43
0.0
 44
0.0
 50
0.0
 51
0.0
 71
     0
 72
  2000
 73
     1
 74
     3
 75
     0
 76
     0
 77
     0
 78
     0
281
     0
 65
     1
110
0.0
120
0.0
130
0.0
111
1.0
121
0.0
131
0.0
112
0.0
122
1.0
132
0.0
 79
     0
146
0.0
  0
ENDTAB
  0
TABLE
  2
LTYPE
  5
5
330
0
100
AcDbSymbolTable
 70
     6
  0
LTYPE
  5
14
330
5
100
AcDbSymbolTableRecord
100
AcDbLinetypeTableRecord
  2
ByBlock
 70
     0
  3

 72
    65
 73
     0
 40
0.0
  0
LTYPE
  5
15
330
5
100
AcDbSymbolTableRecord
100
AcDbLinetypeTableRecord
  2
ByLayer
 70
     0
  3

 72
    65
 73
     0
 40
0.0
  0
LTYPE
  5
16
330
5
100
AcDbSymbolTableRecord
100
AcDbLinetypeTableRecord
  2
Continuous
 70
     0
  3
Solid line
 72
    65
 73
     0
 40
0.0
  0
LTYPE
  5
6E
330
5
100
AcDbSymbolTableRecord
100
AcDbLinetypeTableRecord
  2
HIDDEN
 70
     0
  3
Hidden __ __ __ __ __ __ __ __ __ __ __ __ __ __
 72
    65
 73
     2
 40
1.905
 49
1.27
 74
     0
 49
-0.635
 74
     0
  0
LTYPE
  5
6F
330
5
100
AcDbSymbolTableRecord
100
AcDbLinetypeTableRecord
  2
PHANTOM
 70
     0
  3
Phantom ______  __  __  ______  __  __  ______
 72
    65
 73
     6
 40
12.7
 49
6.35
 74
     0
 49
-1.27
 74
     0
 49
1.27
 74
     0
 49
-1.27
 74
     0
 49
1.27
 74
     0
 49
-1.27
 74
     0
  0
LTYPE
  5
70
330
5
100
AcDbSymbolTableRecord
100
AcDbLinetypeTableRecord
  2
CENTER
 70
     0
  3
Center ____ _ ____ _ ____ _ ____ _ ____ _ ____
 72
    65
 73
     4
 40
10.16
 49
6.35
 74
     0
 49
-1.27
 74
     0
 49
1.27
 74
     0
 49
-1.27
 74
     0
  0
LTYPE
  5
71
330
5
100
AcDbSymbolTableRecord
100
AcDbLinetypeTableRecord
  2
CENTERX2
 70
     0
  3
Center (2x) ________  __  ________  __  _____
 72
    65
 73
     4
 40
20.32
 49
12.7
 74
     0
 49
-2.54
 74
     0
 49
2.54
 74
     0
 49
-2.54
 74
     0
  0
LTYPE
  5
72
330
5
100
AcDbSymbolTableRecord
100
AcDbLinetypeTableRecord
  2
DOT2
 70
     0
  3
Dot (.5x) ........................................
 72
    65
 73
     2
 40
0.635
 49
0.0
 74
     0
 49
-0.635
 74
     0
  0
ENDTAB
  0
TABLE
  2
LAYER
  5
2
330
0
100
AcDbSymbolTable
 70
    17
  0
LAYER
  5
10
330
2
100
AcDbSymbolTableRecord
100
AcDbLayerTableRecord
  2
0
 70
     0
 62
     7
  6
Continuous
370
    -3
390
F
  0
LAYER
  5
73
330
2
100
AcDbSymbolTableRecord
100
AcDbLayerTableRecord
  2
FORMAT
 70
     0
 62
     7
  6
Continuous
370
    -3
390
F
  0
LAYER
  5
74
330
2
100
AcDbSymbolTableRecord
100
AcDbLayerTableRecord
  2
YARDIMCI_GEOMETRI
 70
     0
 62
    -6
  6
Continuous
290
     0
370
    -3
390
F
  0
LAYER
  5
75
330
2
100
AcDbSymbolTableRecord
100
AcDbLayerTableRecord
  2
SAYFA_CERCEVESI
 70
     0
 62
     7
  6
Continuous
370
    25
390
F
  0
LAYER
  5
76
330
2
100
AcDbSymbolTableRecord
100
AcDbLayerTableRecord
  2
ANTET
 70
     0
 62
     7
  6
Continuous
370
    -3
390
F
  0
LAYER
  5
77
330
2
100
AcDbSymbolTableRecord
100
AcDbLayerTableRecord
  2
OLCU
 70
     0
 62
   150
  6
Continuous
370
    -3
390
F
  0
LAYER
  5
78
330
2
100
AcDbSymbolTableRecord
100
AcDbLayerTableRecord
  2
METIN
 70
     0
 62
    96
  6
Continuous
370
    -3
390
F
  0
LAYER
  5
79
330
2
100
AcDbSymbolTableRecord
100
AcDbLayerTableRecord
  2
BALON
 70
     0
 62
     5
  6
Continuous
370
    -3
390
F
  0
LAYER
  5
7A
330
2
100
AcDbSymbolTableRecord
100
AcDbLayerTableRecord
  2
VURGU
 70
     0
 62
     7
  6
Continuous
370
    -3
390
F
  0
LAYER
  5
7B
330
2
100
AcDbSymbolTableRecord
100
AcDbLayerTableRecord
  2
SILIK
 70
     0
 62
     7
  6
Continuous
370
    -3
390
F
  0
LAYER
  5
7C
330
2
100
AcDbSymbolTableRecord
100
AcDbLayerTableRecord
  2
MODEL
 70
     0
 62
     7
  6
Continuous
370
    -3
390
F
  0
LAYER
  5
7D
330
2
100
AcDbSymbolTableRecord
100
AcDbLayerTableRecord
  2
DETAYLANDıRMA
 70
     0
 62
   190
  6
Continuous
370
    -3
390
F
  0
LAYER
  5
7E
330
2
100
AcDbSymbolTableRecord
100
AcDbLayerTableRecord
  2
TOLERANS
 70
     0
 62
   230
  6
Continuous
370
    -3
390
F
  0
LAYER
  5
7F
330
2
100
AcDbSymbolTableRecord
100
AcDbLayerTableRecord
  2
MERKEZ_CIZGILERI
 70
     0
 62
    30
  6
Continuous
370
    -3
390
F
  0
LAYER
  5
80
330
2
100
AcDbSymbolTableRecord
100
AcDbLayerTableRecord
  2
KESIT-DETAY_CIZGILERI
 70
     0
 62
     7
  6
Continuous
370
    -3
390
F
  0
LAYER
  5
81
330
2
100
AcDbSymbolTableRecord
100
AcDbLayerTableRecord
  2
\U+041E\U+0421\U+0415\U+0412\U+042B\U+0415
 70
     0
 62
     7
  6
Continuous
370
    -3
390
F
  0
LAYER
  5
82
330
2
100
AcDbSymbolTableRecord
100
AcDbLayerTableRecord
  2
\U+0412\U+041E\U+0414\U+042F\U+041D\U+042B\U+0415_\U+0417\U+041D\U+0410\U+041A\U+0418
 70
     0
 62
    11
  6
Continuous
370
    -3
390
F
  0
ENDTAB
  0
TABLE
  2
STYLE
  5
3
330
0
100
AcDbSymbolTable
 70
     1
  0
STYLE
  5
11
330
3
100
AcDbSymbolTableRecord
100
AcDbTextStyleTableRecord
  2
Standard
 70
     0
 40
0.0
 41
1.0
 50
0.0
 71
     0
 42
3.5
  3
txt
  4

  0
ENDTAB
  0
TABLE
  2
VIEW
  5
6
330
0
100
AcDbSymbolTable
 70
     0
  0
ENDTAB
  0
TABLE
  2
UCS
  5
7
330
0
100
AcDbSymbolTable
 70
     0
  0
ENDTAB
  0
TABLE
  2
APPID
  5
9
330
0
100
AcDbSymbolTable
 70
     1
  0
APPID
  5
12
330
9
100
AcDbSymbolTableRecord
100
AcDbRegAppTableRecord
  2
ACAD
 70
     0
  0
ENDTAB
  0
TABLE
  2
DIMSTYLE
  5
A
330
0
100
AcDbSymbolTable
 70
     1
100
AcDbDimStyleTable
  0
DIMSTYLE
105
27
330
A
100
AcDbSymbolTableRecord
100
AcDbDimStyleTableRecord
  2
ISO-25
 70
     0
 41
2.5
 42
0.625
 43
3.75
 44
1.25
 73
     0
 74
     0
 77
     1
 78
     8
140
2.5
141
2.5
143
0.0393700787
147
0.625
171
     3
172
     1
178
     0
271
     2
272
     2
274
     3
278
    44
283
     0
284
     8
340
11
  0
ENDTAB
  0
TABLE
  2
BLOCK_RECORD
  5
1
330
0
100
AcDbSymbolTable
 70
     5
  0
BLOCK_RECORD
  5
1F
330
1
100
AcDbSymbolTableRecord
100
AcDbBlockTableRecord
  2
*Model_Space
340
22
  0
BLOCK_RECORD
  5
1B
330
1
100
AcDbSymbolTableRecord
100
AcDbBlockTableRecord
  2
*Paper_Space
340
1E
  0
BLOCK_RECORD
  5
23
330
1
100
AcDbSymbolTableRecord
100
AcDbBlockTableRecord
  2
*Paper_Space0
340
26
  0
BLOCK_RECORD
  5
8B
330
1
100
AcDbSymbolTableRecord
100
AcDbBlockTableRecord
  2
SW_CENTERMARKSYMBOL_0
340
0
102
{BLKREFS
331
96
102
}
  0
BLOCK_RECORD
  5
A9
330
1
100
AcDbSymbolTableRecord
100
AcDbBlockTableRecord
  2
SW_CENTERMARKSYMBOL_1
340
0
102
{BLKREFS
331
B4
102
}
  0
BLOCK_RECORD
  5
D9
330
1
100
AcDbSymbolTableRecord
100
AcDbBlockTableRecord
  2
SW_CENTERMARKSYMBOL_2
340
0
102
{BLKREFS
331
E4
102
}
  0
BLOCK_RECORD
  5
E5
330
1
100
AcDbSymbolTableRecord
100
AcDbBlockTableRecord
  2
SW_CENTERMARKSYMBOL_3
340
0
102
{BLKREFS
331
F0
102
}
  0
ENDTAB
  0
ENDSEC
  0
SECTION
  2
BLOCKS
  0
BLOCK
  5
20
330
1F
100
AcDbEntity
  8
0
100
AcDbBlockBegin
  2
*Model_Space
 70
     0
 10
0.0
 20
0.0
 30
0.0
  3
*Model_Space
  1

  0
ENDBLK
  5
21
330
1F
100
AcDbEntity
  8
0
100
AcDbBlockEnd
  0
BLOCK
  5
1C
330
1B
100
AcDbEntity
 67
     1
  8
0
100
AcDbBlockBegin
  2
*Paper_Space
 70
     0
 10
0.0
 20
0.0
 30
0.0
  3
*Paper_Space
  1

  0
ENDBLK
  5
1D
330
1B
100
AcDbEntity
 67
     1
  8
0
100
AcDbBlockEnd
  0
BLOCK
  5
24
330
23
100
AcDbEntity
  8
0
100
AcDbBlockBegin
  2
*Paper_Space0
 70
     0
 10
0.0
 20
0.0
 30
0.0
  3
*Paper_Space0
  1

  0
ENDBLK
  5
25
330
23
100
AcDbEntity
  8
0
100
AcDbBlockEnd
  0
BLOCK
  5
8C
330
8B
100
AcDbEntity
  8
0
100
AcDbBlockBegin
  2
SW_CENTERMARKSYMBOL_0
 70
     0
 10
0.0
 20
0.0
 30
0.0
  3
SW_CENTERMARKSYMBOL_0
  1

  0
LINE
  5
8E
330
8B
100
AcDbEntity
  8
FORMAT
 62
     0
100
AcDbLine
 10
0.0
 20
0.0
 30
0.0
 11
0.0
 21
2.5
 31
0.0
  0
LINE
  5
8F
330
8B
100
AcDbEntity
  8
FORMAT
 62
     0
100
AcDbLine
 10
0.0
 20
0.0
 30
0.0
 11
-2.5
 21
0.0
 31
0.0
  0
LINE
  5
90
330
8B
100
AcDbEntity
  8
FORMAT
 62
     0
100
AcDbLine
 10
0.0
 20
0.0
 30
0.0
 11
0.0
 21
-2.5
 31
0.0
  0
LINE
  5
91
330
8B
100
AcDbEntity
  8
FORMAT
 62
     0
100
AcDbLine
 10
0.0
 20
0.0
 30
0.0
 11
2.5
 21
0.0
 31
0.0
  0
LINE
  5
92
330
8B
100
AcDbEntity
  8
FORMAT
 62
     0
100
AcDbLine
 10
0.0
 20
5.0
 30
0.0
 11
0.0
 21
61.0
 31
0.0
  0
LINE
  5
93
330
8B
100
AcDbEntity
  8
FORMAT
 62
     0
100
AcDbLine
 10
-5.0
 20
0.0
 30
0.0
 11
-61.0
 21
0.0
 31
0.0
  0
LINE
  5
94
330
8B
100
AcDbEntity
  8
FORMAT
 62
     0
100
AcDbLine
 10
0.0
 20
-5.0
 30
0.0
 11
0.0
 21
-61.0
 31
0.0
  0
LINE
  5
95
330
8B
100
AcDbEntity
  8
FORMAT
 62
     0
100
AcDbLine
 10
5.0
 20
0.0
 30
0.0
 11
61.0
 21
0.0
 31
0.0
  0
ENDBLK
  5
8D
330
8B
100
AcDbEntity
  8
0
100
AcDbBlockEnd
  0
BLOCK
  5
AA
330
A9
100
AcDbEntity
  8
0
100
AcDbBlockBegin
  2
SW_CENTERMARKSYMBOL_1
 70
     0
 10
0.0
 20
0.0
 30
0.0
  3
SW_CENTERMARKSYMBOL_1
  1

  0
LINE
  5
AC
330
A9
100
AcDbEntity
  8
FORMAT
 62
     0
100
AcDbLine
 10
0.0
 20
0.0
 30
0.0
 11
0.0
 21
2.5
 31
0.0
  0
LINE
  5
AD
330
A9
100
AcDbEntity
  8
FORMAT
 62
     0
100
AcDbLine
 10
0.0
 20
0.0
 30
0.0
 11
-2.5
 21
0.0
 31
0.0
  0
LINE
  5
AE
330
A9
100
AcDbEntity
  8
FORMAT
 62
     0
100
AcDbLine
 10
0.0
 20
0.0
 30
0.0
 11
0.0
 21
-2.5
 31
0.0
  0
LINE
  5
AF
330
A9
100
AcDbEntity
  8
FORMAT
 62
     0
100
AcDbLine
 10
0.0
 20
0.0
 30
0.0
 11
2.5
 21
0.0
 31
0.0
  0
LINE
  5
B0
330
A9
100
AcDbEntity
  8
FORMAT
 62
     0
100
AcDbLine
 10
0.0
 20
5.0
 30
0.0
 11
0.0
 21
34.0
 31
0.0
  0
LINE
  5
B1
330
A9
100
AcDbEntity
  8
FORMAT
 62
     0
100
AcDbLine
 10
-5.0
 20
0.0
 30
0.0
 11
-34.0
 21
0.0
 31
0.0
  0
LINE
  5
B2
330
A9
100
AcDbEntity
  8
FORMAT
 62
     0
100
AcDbLine
 10
0.0
 20
-5.0
 30
0.0
 11
0.0
 21
-34.0
 31
0.0
  0
LINE
  5
B3
330
A9
100
AcDbEntity
  8
FORMAT
 62
     0
100
AcDbLine
 10
5.0
 20
0.0
 30
0.0
 11
34.0
 21
0.0
 31
0.0
  0
ENDBLK
  5
AB
330
A9
100
AcDbEntity
  8
0
100
AcDbBlockEnd
  0
BLOCK
  5
DA
330
D9
100
AcDbEntity
  8
0
100
AcDbBlockBegin
  2
SW_CENTERMARKSYMBOL_2
 70
     0
 10
0.0
 20
0.0
 30
0.0
  3
SW_CENTERMARKSYMBOL_2
  1

  0
LINE
  5
DC
330
D9
100
AcDbEntity
  8
FORMAT
 62
     0
100
AcDbLine
 10
0.0
 20
0.0
 30
0.0
 11
0.0
 21
2.5
 31
0.0
  0
LINE
  5
DD
330
D9
100
AcDbEntity
  8
FORMAT
 62
     0
100
AcDbLine
 10
0.0
 20
0.0
 30
0.0
 11
-2.5
 21
0.0
 31
0.0
  0
LINE
  5
DE
330
D9
100
AcDbEntity
  8
FORMAT
 62
     0
100
AcDbLine
 10
0.0
 20
0.0
 30
0.0
 11
0.0
 21
-2.5
 31
0.0
  0
LINE
  5
DF
330
D9
100
AcDbEntity
  8
FORMAT
 62
     0
100
AcDbLine
 10
0.0
 20
0.0
 30
0.0
 11
2.5
 21
0.0
 31
0.0
  0
LINE
  5
E0
330
D9
100
AcDbEntity
  8
FORMAT
 62
     0
100
AcDbLine
 10
0.0
 20
5.0
 30
0.0
 11
0.0
 21
9.5
 31
0.0
  0
LINE
  5
E1
330
D9
100
AcDbEntity
  8
FORMAT
 62
     0
100
AcDbLine
 10
-5.0
 20
0.0
 30
0.0
 11
-9.5
 21
0.0
 31
0.0
  0
LINE
  5
E2
330
D9
100
AcDbEntity
  8
FORMAT
 62
     0
100
AcDbLine
 10
0.0
 20
-5.0
 30
0.0
 11
0.0
 21
-9.5
 31
0.0
  0
LINE
  5
E3
330
D9
100
AcDbEntity
  8
FORMAT
 62
     0
100
AcDbLine
 10
5.0
 20
0.0
 30
0.0
 11
9.5
 21
0.0
 31
0.0
  0
ENDBLK
  5
DB
330
D9
100
AcDbEntity
  8
0
100
AcDbBlockEnd
  0
BLOCK
  5
E6
330
E5
100
AcDbEntity
  8
0
100
AcDbBlockBegin
  2
SW_CENTERMARKSYMBOL_3
 70
     0
 10
0.0
 20
0.0
 30
0.0
  3
SW_CENTERMARKSYMBOL_3
  1

  0
LINE
  5
E8
330
E5
100
AcDbEntity
  8
FORMAT
 62
     0
100
AcDbLine
 10
0.0
 20
0.0
 30
0.0
 11
0.0
 21
2.5
 31
0.0
  0
LINE
  5
E9
330
E5
100
AcDbEntity
  8
FORMAT
 62
     0
100
AcDbLine
 10
0.0
 20
0.0
 30
0.0
 11
-2.5
 21
0.0
 31
0.0
  0
LINE
  5
EA
330
E5
100
AcDbEntity
  8
FORMAT
 62
     0
100
AcDbLine
 10
0.0
 20
0.0
 30
0.0
 11
0.0
 21
-2.5
 31
0.0
  0
LINE
  5
EB
330
E5
100
AcDbEntity
  8
FORMAT
 62
     0
100
AcDbLine
 10
0.0
 20
0.0
 30
0.0
 11
2.5
 21
0.0
 31
0.0
  0
LINE
  5
EC
330
E5
100
AcDbEntity
  8
FORMAT
 62
     0
100
AcDbLine
 10
0.0
 20
5.0
 30
0.0
 11
0.0
 21
9.5
 31
0.0
  0
LINE
  5
ED
330
E5
100
AcDbEntity
  8
FORMAT
 62
     0
100
AcDbLine
 10
-5.0
 20
0.0
 30
0.0
 11
-9.5
 21
0.0
 31
0.0
  0
LINE
  5
EE
330
E5
100
AcDbEntity
  8
FORMAT
 62
     0
100
AcDbLine
 10
0.0
 20
-5.0
 30
0.0
 11
0.0
 21
-9.5
 31
0.0
  0
LINE
  5
EF
330
E5
100
AcDbEntity
  8
FORMAT
 62
     0
100
AcDbLine
 10
5.0
 20
0.0
 30
0.0
 11
9.5
 21
0.0
 31
0.0
  0
ENDBLK
  5
E7
330
E5
100
AcDbEntity
  8
0
100
AcDbBlockEnd
  0
ENDSEC
  0
SECTION
  2
ENTITIES
  0
LINE
  5
83
330
1F
100
AcDbEntity
  8
0
  6
Continuous
 62
     7
370
    25
100
AcDbLine
 10
116.8658828604
 20
161.9845875467
 30
0.0
 11
116.8658828604
 21
187.8943947955
 31
0.0
  0
LINE
  5
84
330
1F
100
AcDbEntity
  8
0
  6
Continuous
 62
     7
370
    25
100
AcDbLine
 10
102.8658828604
 20
187.8943947955
 30
0.0
 11
102.8658828604
 21
161.9741455183
 31
0.0
  0
LINE
  5
85
330
1F
100
AcDbEntity
  8
0
  6
Continuous
 62
     7
370
    25
100
AcDbLine
 10
159.1956447079
 20
72.3943947955
 30
0.0
 11
241.8658828604
 21
72.3943947955
 31
0.0
  0
LINE
  5
86
330
1F
100
AcDbEntity
  8
0
  6
Continuous
 62
     7
370
    25
100
AcDbLine
 10
241.8658828604
 20
135.3943947955
 30
0.0
 11
159.1766214296
 21
135.3943947955
 31
0.0
  0
CIRCLE
  5
87
330
1F
100
AcDbEntity
  8
0
  6
Continuous
 62
     7
370
    25
100
AcDbCircle
 10
109.8658828604
 20
103.8943947955
 30
0.0
 40
45.00000000000001
  0
CIRCLE
  5
88
330
1F
100
AcDbEntity
  8
0
  6
Continuous
 62
     7
370
    25
100
AcDbCircle
 10
109.8658828604
 20
103.8943947955
 30
0.0
 40
58.50000000000001
  0
LINE
  5
89
330
1F
100
AcDbEntity
  8
0
  6
Continuous
 62
     7
370
    25
100
AcDbLine
 10
116.8658828604
 20
187.8943947955
 30
0.0
 11
102.8658828604
 21
187.8943947955
 31
0.0
  0
LINE
  5
8A
330
1F
100
AcDbEntity
  8
0
  6
Continuous
 62
     7
370
    25
100
AcDbLine
 10
241.8658828604
 20
135.3943947955
 30
0.0
 11
241.8658828604
 21
72.3943947955
 31
0.0
  0
INSERT
  5
96
330
1F
100
AcDbEntity
  8
FORMAT
 62
     7
100
AcDbBlockReference
  2
SW_CENTERMARKSYMBOL_0
 10
109.8658828604
 20
103.8943947955
 30
0.0
  0
LINE
  5
97
330
1F
100
AcDbEntity
  8
0
  6
Continuous
 62
     7
370
    25
100
AcDbLine
 10
-267.1307570417
 20
162.3943947955
 30
0.0
 11
-268.218596369
 21
162.3943947955
 31
0.0
  0
LINE
  5
98
330
1F
100
AcDbEntity
  8
0
  6
Continuous
 62
     7
370
    25
100
AcDbLine
 10
-73.1307570417
 20
162.3943947955
 30
0.0
 11
-253.218596369
 21
162.3943947955
 31
0.0
  0
LINE
  5
99
330
1F
100
AcDbEntity
  8
0
  6
Continuous
 62
     7
370
    25
100
AcDbLine
 10
-58.218596369
 20
162.3943947955
 30
0.0
 11
-59.218596369
 21
162.3943947955
 31
0.0
  0
LINE
  5
9A
330
1F
100
AcDbEntity
  8
0
  6
Continuous
 62
     7
370
    25
100
AcDbLine
 10
-268.218596369
 20
45.3943947955
 30
0.0
 11
-58.218596369
 21
45.3943947955
 31
0.0
  0
LINE
  5
9B
330
1F
100
AcDbEntity
  8
0
  6
Continuous
 62
     7
370
    25
100
AcDbLine
 10
-59.218596369
 20
162.3943947955
 30
0.0
 11
-59.218596369
 21
187.8943947955
 31
0.0
  0
LINE
  5
9C
330
1F
100
AcDbEntity
  8
0
  6
Continuous
 62
     7
370
    25
100
AcDbLine
 10
-73.218596369
 20
187.8943947955
 30
0.0
 11
-73.218596369
 21
162.3840128856
 31
0.0
  0
LINE
  5
9D
330
1F
100
AcDbEntity
  8
0
  6
Continuous
 62
     7
370
    25
100
AcDbLine
 10
-253.218596369
 20
162.3943947955
 30
0.0
 11
-253.218596369
 21
187.8943947955
 31
0.0
  0
LINE
  5
9E
330
1F
100
AcDbEntity
  8
0
  6
Continuous
 62
     7
370
    25
100
AcDbLine
 10
-267.218596369
 20
187.8943947955
 30
0.0
 11
-267.218596369
 21
162.3840128856
 31
0.0
  0
CIRCLE
  5
9F
330
1F
100
AcDbEntity
  8
0
  6
Continuous
 62
     7
370
    25
100
AcDbCircle
 10
-163.218596369
 20
103.8943947955
 30
0.0
 40
25.69999999999999
  0
CIRCLE
  5
A0
330
1F
100
AcDbEntity
  8
0
  6
Continuous
 62
     7
370
    25
100
AcDbCircle
 10
-163.218596369
 20
103.8943947955
 30
0.0
 40
31.49999999999997
  0
LINE
  5
A1
330
1F
100
AcDbEntity
  8
0
  6
Continuous
 62
     7
370
    25
100
AcDbLine
 10
-268.218596369
 20
103.8943947955
 30
0.0
 11
-268.218596369
 21
162.3943947955
 31
0.0
  0
LINE
  5
A2
330
1F
100
AcDbEntity
  8
0
  6
Continuous
 62
     7
370
    25
100
AcDbLine
 10
-268.218596369
 20
45.3943947955
 30
0.0
 11
-268.218596369
 21
103.8943947955
 31
0.0
  0
LINE
  5
A3
330
1F
100
AcDbEntity
  8
0
  6
Continuous
 62
     7
370
    25
100
AcDbLine
 10
-58.218596369
 20
103.8943947955
 30
0.0
 11
-58.218596369
 21
162.3943947955
 31
0.0
  0
LINE
  5
A4
330
1F
100
AcDbEntity
  8
0
  6
Continuous
 62
     7
370
    25
100
AcDbLine
 10
-58.218596369
 20
45.3943947955
 30
0.0
 11
-58.218596369
 21
103.8943947955
 31
0.0
  0
SPLINE
  5
A5
330
1F
100
AcDbEntity
  8
0
  6
Continuous
 62
     7
370
    25
100
AcDbSpline
210
0.0
220
0.0
230
1.0
 70
     8
 71
     3
 72
    17
 73
    13
 74
     0
 42
0.00000001
 43
0.00000001
 40
0.0
 40
0.0
 40
0.0
 40
0.0
 40
0.1068504461700554
 40
0.2136826540088686
 40
0.3209894062584944
 40
0.42862060996767
 40
0.5357313383137429
 40
0.64228801447635
 40
0.7491213591413382
 40
0.8566284990561478
 40
0.9641599511372195
 40
1.0
 40
1.0
 40
1.0
 40
1.0
 10
-253.2185963689693
 20
162.3943947955237
 30
0.0
 10
-253.2954272399347
 20
162.3849441294922
 30
0.0
 10
-253.4490758675836
 20
162.3660444105658
 30
0.0
 10
-254.6461324339635
 20
162.2344269872024
 30
0.0
 10
-256.4134726246898
 20
162.0870251609812
 30
0.0
 10
-258.6286089705594
 20
161.9799517792046
 30
0.0
 10
-261.016873593295
 20
161.9633889776079
 30
0.0
 10
-263.3049660173366
 20
162.0426548619032
 30
0.0
 10
-265.2628422480902
 20
162.1849518937289
 30
0.0
 10
-266.6074123514574
 20
162.3212806494792
 30
0.0
 10
-267.2522469874634
 20
162.3983669130153
 30
0.0
 10
-267.155053498059
 20
162.3868581247079
 30
0.0
 10
-267.1307570417447
 20
162.3839811545111
 30
0.0
  0
SPLINE
  5
A6
330
1F
100
AcDbEntity
  8
0
  6
Continuous
 62
     7
370
    25
100
AcDbSpline
210
0.0
220
0.0
230
1.0
 70
     8
 71
     3
 72
    17
 73
    13
 74
     0
 42
0.00000001
 43
0.00000001
 40
0.0
 40
0.0
 40
0.0
 40
0.0
 40
0.1068504461700553
 40
0.2136826540088684
 40
0.320989406258494
 40
0.4286206099676695
 40
0.5357313383137423
 40
0.6422880144763492
 40
0.7491213591413374
 40
0.8566284990561471
 40
0.9641599511372181
 40
1.0
 40
1.0
 40
1.0
 40
1.0
 10
-59.21859636896923
 20
162.3943947955237
 30
0.0
 10
-59.29542723993467
 20
162.3849441294921
 30
0.0
 10
-59.44907586758362
 20
162.3660444105658
 30
0.0
 10
-60.64613243396362
 20
162.2344269872024
 30
0.0
 10
-62.4134726246897
 20
162.0870251609812
 30
0.0
 10
-64.6286089705594
 20
161.9799517792046
 30
0.0
 10
-67.01687359329492
 20
161.9633889776079
 30
0.0
 10
-69.30496601733664
 20
162.0426548619033
 30
0.0
 10
-71.26284224809017
 20
162.1849518937289
 30
0.0
 10
-72.60741235145738
 20
162.3212806494792
 30
0.0
 10
-73.25224698746331
 20
162.3983669130153
 30
0.0
 10
-73.155053498059
 20
162.3868581247079
 30
0.0
 10
-73.13075704174472
 20
162.3839811545111
 30
0.0
  0
LINE
  5
A7
330
1F
100
AcDbEntity
  8
0
  6
Continuous
 62
     7
370
    25
100
AcDbLine
 10
-59.218596369
 20
187.8943947955
 30
0.0
 11
-73.218596369
 21
187.8943947955
 31
0.0
  0
LINE
  5
A8
330
1F
100
AcDbEntity
  8
0
  6
Continuous
 62
     7
370
    25
100
AcDbLine
 10
-253.218596369
 20
187.8943947955
 30
0.0
 11
-267.218596369
 21
187.8943947955
 31
0.0
  0
INSERT
  5
B4
330
1F
100
AcDbEntity
  8
FORMAT
 62
     7
100
AcDbBlockReference
  2
SW_CENTERMARKSYMBOL_1
 10
-163.218596369
 20
103.8943947955
 30
0.0
  0
LINE
  5
B5
330
1F
100
AcDbEntity
  8
0
  6
Continuous
 62
     7
370
    25
100
AcDbLine
 10
168.3658828604
 20
420.7071383669
 30
0.0
 11
168.3658828604
 21
494.2071383669
 31
0.0
  0
LINE
  5
B6
330
1F
100
AcDbEntity
  8
0
  6
Continuous
 62
     7
370
    25
100
AcDbLine
 10
168.3658828604
 20
284.2071383669
 30
0.0
 11
168.3658828604
 21
357.7101002172
 31
0.0
  0
LINE
  5
B7
330
1F
100
AcDbEntity
  8
0
  6
Continuous
 62
     7
370
    25
100
AcDbLine
 10
51.3658828604
 20
494.2071383669
 30
0.0
 11
51.3658828604
 21
284.2071383669
 31
0.0
  0
LINE
  5
B8
330
1F
100
AcDbEntity
  8
0
  6
Continuous
 62
     7
370
    25
100
AcDbLine
 10
168.3642182084
 20
357.7071383669
 30
0.0
 11
241.8658828604
 21
357.7071383669
 31
0.0
  0
LINE
  5
B9
330
1F
100
AcDbEntity
  8
0
  6
Continuous
 62
     7
370
    25
100
AcDbLine
 10
241.8658828604
 20
420.7071383669
 30
0.0
 11
168.3658828604
 21
420.7071383669
 31
0.0
  0
SPLINE
  5
BA
330
1F
100
AcDbEntity
  8
0
  6
Continuous
 62
     7
370
    25
100
AcDbSpline
210
0.0
220
0.0
230
1.0
 70
     8
 71
     3
 72
    37
 73
    33
 74
     0
 42
0.00000001
 43
0.00000001
 40
0.0
 40
0.0
 40
0.0
 40
0.0
 40
0.0479857830555957
 40
0.0727524615842027
 40
0.097520518167491
 40
0.1454804700333547
 40
0.1946734957627017
 40
0.2459027548856755
 40
0.2983757713265808
 40
0.3262971528403488
 40
0.354216397331544
 40
0.3830548480663273
 40
0.4118890228006642
 40
0.4379464523325446
 40
0.4640012025837245
 40
0.4910932650689555
 40
0.5181847634080061
 40
0.5629657336247375
 40
0.609004038995288
 40
0.654935705569012
 40
0.7018815843989403
 40
0.7546496771210213
 40
0.7817317591075938
 40
0.808812703258794
 40
0.8367251979944399
 40
0.8646353161648739
 40
0.8935249422596021
 40
0.922411543164177
 40
0.9477619131590889
 40
0.9731110981383332
 40
0.9993579606758369
 40
1.0
 40
1.0
 40
1.0
 40
1.0
 10
168.3658828604024
 20
420.7071383669166
 30
0.0
 10
168.3285554173571
 20
420.6381060700357
 30
0.0
 10
168.2719623351302
 20
420.5334444555514
 30
0.0
 10
167.9265580872628
 20
419.8850653496444
 30
0.0
 10
167.4702313470065
 20
419.0154520197382
 30
0.0
 10
166.6843841750295
 20
417.4822130296406
 30
0.0
 10
165.4736537376564
 20
414.9812578722164
 30
0.0
 10
164.0593633228429
 20
411.7975891014095
 30
0.0
 10
162.8015443969056
 20
408.5777049369534
 30
0.0
 10
161.8190324570361
 20
405.6612344736227
 30
0.0
 10
161.1019424841044
 20
403.2450033370848
 30
0.0
 10
160.4554934500306
 20
400.67450511282
 30
0.0
 10
159.92499878264
 20
398.049122135216
 30
0.0
 10
159.5305833656345
 20
395.4267156455421
 30
0.0
 10
159.2677024690063
 20
392.802665097319
 30
0.0
 10
159.1445851508938
 20
390.1069173367318
 30
0.0
 10
159.1751350837898
 20
386.7713096461598
 30
0.0
 10
159.5053366661331
 20
382.8302209829417
 30
0.0
 10
160.2643712057136
 20
378.4423213594308
 30
0.0
 10
161.3269246514833
 20
374.2684790904196
 30
0.0
 10
162.6338997565596
 20
370.2621645052613
 30
0.0
 10
163.8460833668313
 20
367.164479934662
 30
0.0
 10
164.8409596849681
 20
364.8552612035694
 30
0.0
 10
165.5730213761156
 20
363.24775268848
 30
0.0
 10
166.2603581108056
 20
361.8061413384264
 30
0.0
 10
166.8909470993414
 20
360.533223202458
 30
0.0
 10
167.4353169570016
 20
359.4669626667957
 30
0.0
 10
167.8552045474499
 20
358.6643915228715
 30
0.0
 10
168.1497645929096
 20
358.1094776103237
 30
0.0
 10
168.3151718895922
 20
357.8013824664446
 30
0.0
 10
168.3845141559748
 20
357.6723093511467
 30
0.0
 10
168.3646897983088
 20
357.7092189097731
 30
0.0
 10
168.3642164425257
 20
357.7101002171689
 30
0.0
  0
LINE
  5
BB
330
1F
100
AcDbEntity
  8
0
  6
Continuous
 62
     7
370
    25
100
AcDbLine
 10
51.3658828604
 20
494.2071383669
 30
0.0
 11
168.3658828604
 21
494.2071383669
 31
0.0
  0
LINE
  5
BC
330
1F
100
AcDbEntity
  8
0
  6
Continuous
 62
     7
370
    25
100
AcDbLine
 10
51.3658828604
 20
284.2071383669
 30
0.0
 11
168.3658828604
 21
284.2071383669
 31
0.0
  0
LINE
  5
BD
330
1F
100
AcDbEntity
  8
0
  6
Continuous
 62
     7
370
    25
100
AcDbLine
 10
241.8658828604
 20
420.7071383669
 30
0.0
 11
241.8658828604
 21
357.7071383669
 31
0.0
  0
LINE
  5
BE
330
1F
100
AcDbEntity
  8
0
  6
Continuous
 62
     7
370
    25
100
AcDbLine
 10
289.1619878459
 20
45.3943947955
 30
0.0
 11
499.1619878459
 21
45.3943947955
 31
0.0
  0
LINE
  5
BF
330
1F
100
AcDbEntity
  8
0
  6
Continuous
 62
     7
370
    25
100
AcDbLine
 10
290.1619878459
 20
162.3943947955
 30
0.0
 11
289.1619878459
 21
162.3943947955
 31
0.0
  0
LINE
  5
C0
330
1F
100
AcDbEntity
  8
0
  6
Continuous
 62
     7
370
    25
100
AcDbLine
 10
484.1619878459
 20
162.3943947955
 30
0.0
 11
304.0741485187
 21
162.3943947955
 31
0.0
  0
LINE
  5
C1
330
1F
100
AcDbEntity
  8
0
  6
Continuous
 62
     7
370
    25
100
AcDbLine
 10
499.1619878459
 20
162.3943947955
 30
0.0
 11
498.0741485187
 21
162.3943947955
 31
0.0
  0
LINE
  5
C2
330
1F
100
AcDbEntity
  8
0
  6
Continuous
 62
     7
370
    25
100
AcDbLine
 10
304.1619878459
 20
162.3943947955
 30
0.0
 11
304.1619878459
 21
187.8943947955
 31
0.0
  0
LINE
  5
C3
330
1F
100
AcDbEntity
  8
0
  6
Continuous
 62
     7
370
    25
100
AcDbLine
 10
290.1619878459
 20
187.8943947955
 30
0.0
 11
290.1619878459
 21
162.3943947955
 31
0.0
  0
LINE
  5
C4
330
1F
100
AcDbEntity
  8
0
  6
Continuous
 62
     7
370
    25
100
AcDbLine
 10
498.1619878459
 20
162.3943947955
 30
0.0
 11
498.1619878459
 21
187.8943947955
 31
0.0
  0
LINE
  5
C5
330
1F
100
AcDbEntity
  8
0
  6
Continuous
 62
     7
370
    25
100
AcDbLine
 10
484.1619878459
 20
187.8943947955
 30
0.0
 11
484.1619878459
 21
162.3943947955
 31
0.0
  0
LINE
  5
C6
330
1F
100
AcDbEntity
  8
0
  6
Continuous
 62
     7
370
    25
100
AcDbLine
 10
499.1619878459
 20
162.3943947955
 30
0.0
 11
499.1619878459
 21
45.3943947955
 31
0.0
  0
LINE
  5
C7
330
1F
100
AcDbEntity
  8
0
  6
Continuous
 62
     7
370
    25
100
AcDbLine
 10
289.1619878459
 20
162.3943947955
 30
0.0
 11
289.1619878459
 21
45.3943947955
 31
0.0
  0
ARC
  5
C8
330
1F
100
AcDbEntity
  8
0
  6
Continuous
 62
     7
370
    25
100
AcDbCircle
 10
491.1616932467
 20
220.6703314315
 30
0.0
 40
58.69480953628062
100
AcDbArc
 50
263.1508365752
 51
276.7633884569
  0
ARC
  5
C9
330
1F
100
AcDbEntity
  8
0
  6
Continuous
 62
     7
370
    25
100
AcDbCircle
 10
297.1616932467
 20
220.6703314315
 30
0.0
 40
58.69480953628005
100
AcDbArc
 50
263.1508365752
 51
276.7633884569
  0
LINE
  5
CA
330
1F
100
AcDbEntity
  8
0
  6
Continuous
 62
     7
370
    25
100
AcDbLine
 10
304.1619878459
 20
187.8943947955
 30
0.0
 11
290.1619878459
 21
187.8943947955
 31
0.0
  0
LINE
  5
CB
330
1F
100
AcDbEntity
  8
0
  6
Continuous
 62
     7
370
    25
100
AcDbLine
 10
498.1619878459
 20
187.8943947955
 30
0.0
 11
484.1619878459
 21
187.8943947955
 31
0.0
  0
LINE
  5
CC
330
1F
100
AcDbEntity
  8
0
  6
Continuous
 62
     7
370
    25
100
AcDbLine
 10
51.3658828604
 20
-18.2449956706
 30
0.0
 11
51.3658828604
 21
-228.2449956706
 31
0.0
  0
LINE
  5
CD
330
1F
100
AcDbEntity
  8
0
  6
Continuous
 62
     7
370
    25
100
AcDbLine
 10
168.3658828604
 20
-91.7479575209
 30
0.0
 11
168.3658828604
 21
-18.2449956706
 31
0.0
  0
LINE
  5
CE
330
1F
100
AcDbEntity
  8
0
  6
Continuous
 62
     7
370
    25
100
AcDbLine
 10
168.3658828604
 20
-228.2449956706
 30
0.0
 11
168.3658828604
 21
-154.7449956706
 31
0.0
  0
LINE
  5
CF
330
1F
100
AcDbEntity
  8
0
  6
Continuous
 62
     7
370
    25
100
AcDbLine
 10
168.3658828604
 20
-154.7449956706
 30
0.0
 11
241.8658828604
 21
-154.7449956706
 31
0.0
  0
LINE
  5
D0
330
1F
100
AcDbEntity
  8
0
  6
Continuous
 62
     7
370
    25
100
AcDbLine
 10
241.8658828604
 20
-91.7449956706
 30
0.0
 11
168.3642182084
 21
-91.7449956706
 31
0.0
  0
CIRCLE
  5
D1
330
1F
100
AcDbEntity
  8
0
  6
Continuous
 62
     7
370
    25
100
AcDbCircle
 10
109.8658828604
 20
-26.2449956706
 30
0.0
 40
7.000000000000021
  0
CIRCLE
  5
D2
330
1F
100
AcDbEntity
  8
0
  6
Continuous
 62
     7
370
    25
100
AcDbCircle
 10
109.8658828604
 20
-26.2449956706
 30
0.0
 40
5.000000000000004
  0
CIRCLE
  5
D3
330
1F
100
AcDbEntity
  8
0
  6
Continuous
 62
     7
370
    25
100
AcDbCircle
 10
109.8658828604
 20
-220.2449956706
 30
0.0
 40
5.0
  0
CIRCLE
  5
D4
330
1F
100
AcDbEntity
  8
0
  6
Continuous
 62
     7
370
    25
100
AcDbCircle
 10
109.8658828604
 20
-220.2449956706
 30
0.0
 40
7.0
  0
LWPOLYLINE
  5
D5
330
1F
100
AcDbEntity
  8
0
  6
Continuous
 62
     7
370
    25
100
AcDbPolyline
 90
       32
 70
   128
 43
0.0
 10
168.3642164425
 20
-91.7479575209
 10
168.3088458555
 20
-91.8510484251
 10
167.925362942
 20
-92.5708497599
 10
167.1889064427
 20
-93.9887308268
 10
166.1715725045
 20
-96.0359771969
 10
164.924878109
 20
-98.7196423034
 10
163.4555885388
 20
-102.2246114045
 10
162.697671941
 20
-104.2398078097
 10
161.9625362962
 20
-106.3908775029
 10
161.2450235311
 20
-108.7602865974
 10
160.5982365422
 20
-111.2545115228
 10
160.0290541864
 20
-113.9545049151
 10
159.5866012353
 20
-116.7527051877
 10
159.3231583241
 20
-119.2459645032
 10
159.1828392675
 20
-121.774557211
 10
159.1751597403
 20
-124.4138066497
 10
159.306906595
 20
-127.0416821107
 10
159.8301085759
 20
-131.3950785749
 10
160.6967878514
 20
-135.6458384726
 10
161.8495731027
 20
-139.7466335048
 10
163.1755514513
 20
-143.5408268996
 10
163.9406406714
 20
-145.4729313098
 10
164.6964151166
 20
-147.2530623877
 10
165.4433353126
 20
-148.9132038438
 10
166.1411737622
 20
-150.3910518497
 10
166.7680055477
 20
-151.6678240599
 10
167.3108305952
 20
-152.7394361679
 10
167.76752398
 20
-153.6194854234
 10
168.1027217278
 20
-154.2535332252
 10
168.2988788268
 20
-154.6203843951
 10
168.3658828604
 20
-154.7449956706
 10
168.3658828604
 20
-154.7449956706
  0
LINE
  5
D6
330
1F
100
AcDbEntity
  8
0
  6
Continuous
 62
     7
370
    25
100
AcDbLine
 10
168.3658828604
 20
-228.2449956706
 30
0.0
 11
51.3658828604
 21
-228.2449956706
 31
0.0
  0
LINE
  5
D7
330
1F
100
AcDbEntity
  8
0
  6
Continuous
 62
     7
370
    25
100
AcDbLine
 10
168.3658828604
 20
-18.2449956706
 30
0.0
 11
51.3658828604
 21
-18.2449956706
 31
0.0
  0
LINE
  5
D8
330
1F
100
AcDbEntity
  8
0
  6
Continuous
 62
     7
370
    25
100
AcDbLine
 10
241.8658828604
 20
-91.7449956706
 30
0.0
 11
241.8658828604
 21
-154.7449956706
 31
0.0
  0
INSERT
  5
E4
330
1F
100
AcDbEntity
  8
FORMAT
 62
     7
100
AcDbBlockReference
  2
SW_CENTERMARKSYMBOL_2
 10
109.8658828604
 20
-220.2449956706
 30
0.0
  0
INSERT
  5
F0
330
1F
100
AcDbEntity
  8
FORMAT
 62
     7
100
AcDbBlockReference
  2
SW_CENTERMARKSYMBOL_3
 10
109.8658828604
 20
-26.2449956706
 30
0.0
  0
LINE
  5
F1
330
1F
100
AcDbEntity
  8
0
  6
Continuous
 62
     7
370
    25
100
AcDbLine
 10
496.4833961014
 20
-106.9248156196
 30
0.0
 11
482.9968758044
 21
-99.1392131734
 31
0.0
  0
LINE
  5
F2
330
1F
100
AcDbEntity
  8
0
  6
Continuous
 62
     7
370
    25
100
AcDbLine
 10
419.9917555443
 20
-62.7671314488
 30
0.0
 11
347.9909720522
 21
-21.2019638783
 31
0.0
  0
LINE
  5
F3
330
1F
100
AcDbEntity
  8
0
  6
Continuous
 62
     7
370
    25
100
AcDbLine
 10
289.495726193
 20
-122.5296807768
 30
0.0
 11
437.9881502422
 21
-208.2525325182
 31
0.0
  0
LINE
  5
F4
330
1F
100
AcDbEntity
  8
0
  6
Continuous
 62
     7
370
    25
100
AcDbLine
 10
446.9854120486
 20
-119.9281886938
 30
0.0
 11
502.0763763028
 21
-88.1248519829
 31
0.0
  0
LINE
  5
F5
330
1F
100
AcDbEntity
  8
0
  6
Continuous
 62
     7
370
    25
100
AcDbLine
 10
470.5789362248
 20
-33.5637736529
 30
0.0
 11
415.4892913482
 21
-65.3663487033
 31
0.0
  0
LINE
  5
F6
330
1F
100
AcDbEntity
  8
0
  6
Continuous
 62
     7
370
    25
100
AcDbLine
 10
331.4002033721
 20
-19.0824847555
 30
0.0
 11
331.4002033721
 21
-6.5420265764
 31
0.0
  0
LINE
  5
F7
330
1F
100
AcDbEntity
  8
0
  6
Continuous
 62
     7
370
    25
100
AcDbLine
 10
317.4002033721
 20
-6.5420265764
 30
0.0
 11
317.4002033721
 21
-24.89875374
 31
0.0
  0
SPLINE
  5
F8
330
1F
100
AcDbEntity
  8
0
  6
Continuous
 62
     7
370
    25
100
AcDbSpline
210
0.0
220
0.0
230
1.0
 70
     8
 71
     3
 72
    26
 73
    22
 74
     0
 42
0.00000001
 43
0.00000001
 40
0.0
 40
0.0
 40
0.0
 40
0.0
 40
0.043281955711574
 40
0.0867178139762016
 40
0.1300133966148225
 40
0.1947478326849219
 40
0.2595130137651004
 40
0.3286250638319986
 40
0.3977448348209425
 40
0.4481272041722534
 40
0.498673740720975
 40
0.549009229720915
 40
0.5961626359047091
 40
0.6435094492418267
 40
0.6906366542591065
 40
0.7511477156884596
 40
0.8116908709549876
 40
0.8735784528258191
 40
0.935493672100468
 40
0.9829716128102418
 40
1.0
 40
1.0
 40
1.0
 40
1.0
 10
412.0814442392136
 20
-77.98888316619804
 30
0.0
 10
412.0923336623734
 20
-78.9031506060739
 30
0.0
 10
412.1141512294487
 20
-80.73493645013299
 30
0.0
 10
412.2883677447825
 20
-83.71184200568781
 30
0.0
 10
412.612433128021
 20
-87.31134719861413
 30
0.0
 10
413.176557942217
 20
-91.57256003079009
 30
0.0
 10
414.093574359217
 20
-96.51412421949577
 30
0.0
 10
415.3427478703517
 20
-101.4853524252297
 30
0.0
 10
416.8347820454609
 20
-105.9077127475545
 30
0.0
 10
418.4813467567226
 20
-109.6399136329644
 30
0.0
 10
420.1916626889679
 20
-112.7191051609663
 30
0.0
 10
422.1210362312734
 20
-115.4406202940179
 30
0.0
 10
424.2757428645517
 20
-117.7462546236132
 30
0.0
 10
426.6088171485172
 20
-119.628068115294
 30
0.0
 10
429.3804882147936
 20
-121.2340819098796
 30
0.0
 10
432.618249157255
 20
-122.3451270776698
 30
0.0
 10
436.2668749623222
 20
-122.8183129833204
 30
0.0
 10
439.9574325232256
 20
-122.5649210147674
 30
0.0
 10
443.2579858583104
 20
-121.6885156153212
 30
0.0
 10
445.5967129987992
 20
-120.7421050395841
 30
0.0
 10
446.6772705135083
 20
-120.0674406490247
 30
0.0
 10
446.9625161993259
 20
-119.8893426725986
 30
0.0
  0
SPLINE
  5
F9
330
1F
100
AcDbEntity
  8
0
  6
Continuous
 62
     7
370
    25
100
AcDbSpline
210
0.0
220
0.0
230
1.0
 70
     8
 71
     3
 72
    15
 73
    11
 74
     0
 42
0.00000001
 43
0.00000001
 40
0.0
 40
0.0
 40
0.0
 40
0.0
 40
0.0353690881237224
 40
0.1819976239334696
 40
0.3281543856191672
 40
0.4782111685881465
 40
0.6288173632589162
 40
0.7787573159212843
 40
0.8893805462938287
 40
1.0
 40
1.0
 40
1.0
 40
1.0
 10
415.5075904742926
 20
-65.3992895994738
 30
0.0
 10
415.4184295028603
 20
-65.43817690366211
 30
0.0
 10
414.9596366470334
 20
-65.63827810329425
 30
0.0
 10
414.3139920565649
 20
-66.3497044213053
 30
0.0
 10
413.5518226831229
 20
-67.56815001743749
 30
0.0
 10
412.9594232126674
 20
-69.22538566406116
 30
0.0
 10
412.5121738391099
 20
-71.27655236598973
 30
0.0
 10
412.2448978033482
 20
-73.50095684888957
 30
0.0
 10
412.1048708535355
 20
-75.75636620777922
 30
0.0
 10
412.0892530217874
 20
-77.24471931557483
 30
0.0
 10
412.0814442392136
 20
-77.98888316619804
 30
0.0
  0
LWPOLYLINE
  5
FA
330
1F
100
AcDbEntity
  8
0
  6
Continuous
 62
     7
370
    25
100
AcDbPolyline
 90
      104
 70
   128
 43
0.0
 10
360.109095822
 20
-47.9858850567
 10
360.0321541747
 20
-45.1181975797
 10
359.8016154607
 20
-42.3500130235
 10
359.4183372993
 20
-39.6916292166
 10
358.8837455102
 20
-37.1529355212
 10
358.1998288102
 20
-34.7433760447
 10
357.3691314143
 20
-32.4719145066
 10
356.3947435712
 20
-30.347000893
 10
355.2802900679
 20
-28.3765400221
 10
354.0299167445
 20
-26.5678621377
 10
352.6482750719
 20
-24.9276956404
 10
351.1405048479
 20
-23.4621420574
 10
349.5122150767
 20
-22.176653344
 10
347.7694631033
 20
-21.0760116029
 10
345.9187320795
 20
-20.1643112936
 10
343.9669068461
 20
-19.4449440011
 10
341.9212483214
 20
-18.920585819
 10
339.7893664893
 20
-18.5931873941
 10
337.5791920902
 20
-18.4639666702
 10
335.2989471182
 20
-18.5334043567
 10
332.9571142343
 20
-18.801242141
 10
330.5624052106
 20
-19.2664836489
 10
328.123728522
 20
-19.9273981513
 10
325.6501562059
 20
-20.7815270031
 10
323.1508901138
 20
-21.8256927887
 10
320.6352276797
 20
-23.0560111428
 10
318.1125273332
 20
-24.4679052003
 10
315.5921736851
 20
-26.0561226227
 10
313.0835426166
 20
-27.8147551368
 10
310.5959664001
 20
-29.7372605141
 10
308.1386989824
 20
-31.8164869084
 10
305.7208815598
 20
-34.0446994608
 10
303.3515085718
 20
-36.4136090745
 10
301.0393942416
 20
-38.9144032499
 10
298.7931397863
 20
-41.5377788686
 10
296.6211014202
 20
-44.2739768009
 10
294.5313592684
 20
-47.1128182107
 10
292.5316873092
 20
-50.0437424217
 10
290.6295244535
 20
-53.0558462032
 10
288.8319468721
 20
-56.1379243314
 10
287.1456416717
 20
-59.2785112731
 10
285.5768820183
 20
-62.4659238386
 10
284.1315038009
 20
-65.6883046439
 10
282.8148839214
 20
-68.9336662208
 10
281.6319202923
 20
-72.1899356109
 10
280.5870136159
 20
-75.4449992784
 10
279.6840510137
 20
-78.6867481725
 10
278.9263915659
 20
-81.9031227745
 10
278.3168538154
 20
-85.0821579595
 10
277.8577052827
 20
-88.2120275079
 10
277.5506540304
 20
-91.2810880995
 10
277.3968423094
 20
-94.2779226272
 10
277.3968423094
 20
-97.1913826697
 10
277.5506540304
 20
-100.0106299644
 10
277.8577052827
 20
-102.7251767261
 10
278.3168538154
 20
-105.3249246626
 10
278.9263915659
 20
-107.8002025408
 10
279.6840510137
 20
-110.1418021644
 10
280.5870136159
 20
-112.3410126291
 10
281.6319202923
 20
-114.3896527274
 10
282.8148839214
 20
-116.2801013837
 10
284.1315038009
 20
-118.0053260047
 10
285.5768820183
 20
-119.5589086416
 10
287.1456416717
 20
-120.935069865
 10
288.8319468721
 20
-122.1286902646
 10
290.6295244535
 20
-123.1353294942
 10
292.5316873092
 20
-123.9512427897
 10
294.5313592684
 20
-124.5733949002
 10
296.6211014202
 20
-124.9994713788
 10
298.7931397863
 20
-125.2278871932
 10
301.0393942416
 20
-125.2577926214
 10
303.3515085718
 20
-125.0890764133
 10
305.7208815598
 20
-124.7223662043
 10
308.1386989824
 20
-124.1590261805
 10
310.5959664001
 20
-123.4011520037
 10
313.0835426166
 20
-122.4515630156
 10
315.5921736851
 20
-121.3137917497
 10
318.1125273332
 20
-119.9920707898
 10
320.6352276797
 20
-118.4913170247
 10
323.1508901138
 20
-116.8171133569
 10
325.6501562059
 20
-114.9756879341
 10
328.123728522
 20
-112.9738909798
 10
330.5624052106
 20
-110.8191693101
 10
332.9571142343
 20
-108.5195386311
 10
335.2989471182
 20
-106.0835537201
 10
337.5791920902
 20
-103.5202766009
 10
339.7893664893
 20
-100.8392428327
 10
341.9212483214
 20
-98.0504260373
 10
343.9669068461
 20
-95.1642007962
 10
345.9187320795
 20
-92.191304057
 10
347.7694631033
 20
-89.1427951908
 10
349.5122150767
 20
-86.0300148507
 10
351.1405048479
 20
-82.8645427842
 10
352.6482750719
 20
-79.6581547552
 10
354.0299167445
 20
-76.4227787377
 10
355.2802900679
 20
-73.1704505431
 10
356.3947435712
 20
-69.9132690459
 10
357.3691314143
 20
-66.6633511751
 10
358.1998288102
 20
-63.4327868387
 10
358.8837455102
 20
-60.2335939482
 10
359.4183372993
 20
-57.0776737112
 10
359.8016154607
 20
-53.9767663584
 10
360.0321541747
 20
-50.9424074688
 10
360.109095822
 20
-47.9858850567
  0
LWPOLYLINE
  5
FB
330
1F
100
AcDbEntity
  8
0
  6
Continuous
 62
     7
370
    25
100
AcDbPolyline
 90
       14
 70
   128
 43
0.0
 10
508.6015198712
 20
-133.7087367981
 10
508.5245782239
 20
-130.8410493211
 10
508.2940395099
 20
-128.0728647649
 10
507.9107613484
 20
-125.414480958
 10
507.3761695594
 20
-122.8757872626
 10
506.6922528594
 20
-120.4662277861
 10
505.8615554634
 20
-118.194766248
 10
504.8871676204
 20
-116.0698526344
 10
503.7727141171
 20
-114.0993917635
 10
502.5223407937
 20
-112.2907138791
 10
501.1406991211
 20
-110.6505473818
 10
499.6329288971
 20
-109.1849937987
 10
498.0046391259
 20
-107.8995050854
 10
496.4833961014
 20
-106.9248156196
  0
LWPOLYLINE
  5
FC
330
1F
100
AcDbEntity
  8
0
  6
Continuous
 62
     7
370
    25
100
AcDbPolyline
 90
       40
 70
   128
 43
0.0
 10
437.9881502422
 20
-208.2525325182
 10
439.1219485027
 20
-208.8581812356
 10
441.0241113584
 20
-209.6740945311
 10
443.0237833176
 20
-210.2962466416
 10
445.1135254693
 20
-210.7223231202
 10
447.2855638355
 20
-210.9507389346
 10
449.5318182908
 20
-210.9806443628
 10
451.843932621
 20
-210.8119281547
 10
454.213305609
 20
-210.4452179457
 10
456.6311230316
 20
-209.8818779218
 10
459.0883904493
 20
-209.124003745
 10
461.5759666658
 20
-208.174414757
 10
464.0845977343
 20
-207.0366434911
 10
466.6049513824
 20
-205.7149225312
 10
469.1276517289
 20
-204.2141687661
 10
471.643314163
 20
-202.5399650983
 10
474.1425802551
 20
-200.6985396755
 10
476.6161525712
 20
-198.6967427212
 10
479.0548292598
 20
-196.5420210515
 10
481.4495382835
 20
-194.2423903725
 10
483.7913711674
 20
-191.8064054615
 10
486.0716161394
 20
-189.2431283423
 10
488.2817905384
 20
-186.5620945741
 10
490.4136723706
 20
-183.7732777786
 10
492.4593308953
 20
-180.8870525376
 10
494.4111561287
 20
-177.9141557984
 10
496.2618871525
 20
-174.8656469321
 10
498.0046391259
 20
-171.7528665921
 10
499.6329288971
 20
-168.5873945256
 10
501.1406991211
 20
-165.3810064966
 10
502.5223407937
 20
-162.1456304791
 10
503.7727141171
 20
-158.8933022845
 10
504.8871676204
 20
-155.6361207873
 10
505.8615554634
 20
-152.3862029165
 10
506.6922528594
 20
-149.1556385801
 10
507.3761695594
 20
-145.9564456895
 10
507.9107613484
 20
-142.8005254526
 10
508.2940395099
 20
-139.6996180998
 10
508.5245782239
 20
-136.6652592102
 10
508.6015198712
 20
-133.7087367981
  0
LWPOLYLINE
  5
FD
330
1F
100
AcDbEntity
  8
0
  6
Continuous
 62
     7
370
    25
100
AcDbPolyline
 90
       91
 70
   128
 43
0.0
 10
350.563154276
 20
-53.4966398115
 10
350.4856428299
 20
-50.9782308702
 10
350.2534861196
 20
-48.5615841748
 10
349.8678151892
 20
-46.2584733851
 10
349.3305089888
 20
-44.0801190255
 10
348.6441852201
 20
-42.0371338193
 10
347.8121875835
 20
-40.1394709852
 10
346.838569488
 20
-38.3963757457
 10
345.728074303
 20
-36.8163402856
 10
344.4861122494
 20
-35.4070623788
 10
343.1187340415
 20
-34.1754078857
 10
341.6326014084
 20
-33.1273773032
 10
340.0349546391
 20
-32.2680765308
 10
338.3335773079
 20
-31.6016919956
 10
336.5367583542
 20
-31.131470256
 10
334.6532516993
 20
-30.8597021851
 10
332.6922335983
 20
-30.7877118097
 10
330.6632579343
 20
-30.9158498595
 10
328.5762096727
 20
-31.2434920589
 10
326.4412567029
 20
-31.769042168
 10
324.2688003012
 20
-32.4899397596
 10
322.0694244567
 20
-33.4026726929
 10
319.8538443076
 20
-34.502794225
 10
317.6328539376
 20
-35.7849446743
 10
315.4172737884
 20
-37.2428775327
 10
313.217897944
 20
-38.8694898978
 10
311.0454415423
 20
-40.6568570778
 10
308.9104885725
 20
-42.5962711993
 10
306.8234403109
 20
-44.6782836318
 10
304.7944646469
 20
-46.8927510199
 10
302.8334465459
 20
-49.2288847011
 10
300.949939891
 20
-51.675303267
 10
299.1531209373
 20
-54.2200880122
 10
297.4517436061
 20
-56.8508410013
 10
295.8540968367
 20
-59.5547454701
 10
294.3679642037
 20
-62.3186282678
 10
293.0005859958
 20
-65.1290240353
 10
291.7586239422
 20
-67.9722408069
 10
290.6481287572
 20
-70.8344267163
 10
289.6745106616
 20
-73.7016374814
 10
288.8425130251
 20
-76.5599043396
 10
288.1561892564
 20
-79.3953021022
 10
287.618883056
 20
-82.1940169961
 10
287.2332121256
 20
-84.9424139637
 10
287.0010554153
 20
-87.6271030914
 10
286.9235439692
 20
-90.2350048435
 10
287.0010554153
 20
-92.7534137849
 10
287.2332121256
 20
-95.1700604803
 10
287.618883056
 20
-97.4731712699
 10
288.1561892564
 20
-99.6515256296
 10
288.8425130251
 20
-101.6945108358
 10
289.6745106616
 20
-103.5921736699
 10
290.6481287572
 20
-105.3352689094
 10
291.7586239422
 20
-106.9153043695
 10
293.0005859958
 20
-108.3245822762
 10
294.3679642037
 20
-109.5562367693
 10
295.8540968367
 20
-110.6042673519
 10
297.4517436061
 20
-111.4635681243
 10
299.1531209373
 20
-112.1299526595
 10
300.949939891
 20
-112.600174399
 10
302.8334465459
 20
-112.8719424699
 10
304.7944646469
 20
-112.9439328454
 10
306.8234403109
 20
-112.8157947956
 10
308.9104885725
 20
-112.4881525962
 10
311.0454415423
 20
-111.962602487
 10
313.217897944
 20
-111.2417048955
 10
315.4172737884
 20
-110.3289719621
 10
317.6328539376
 20
-109.22885043
 10
319.8538443076
 20
-107.9466999807
 10
322.0694244568
 20
-106.4887671223
 10
324.2688003012
 20
-104.8621547572
 10
326.4412567029
 20
-103.0747875773
 10
328.5762096727
 20
-101.1353734557
 10
330.6632579343
 20
-99.0533610233
 10
332.6922335983
 20
-96.8388936351
 10
334.6532516993
 20
-94.5027599539
 10
336.5367583542
 20
-92.056341388
 10
338.3335773079
 20
-89.5115566428
 10
340.0349546391
 20
-86.8808036538
 10
341.6326014084
 20
-84.176899185
 10
343.1187340415
 20
-81.4130163873
 10
344.4861122494
 20
-78.6026206198
 10
345.728074303
 20
-75.7594038482
 10
346.838569488
 20
-72.8972179388
 10
347.8121875835
 20
-70.0300071737
 10
348.6441852201
 20
-67.1717403154
 10
349.3305089888
 20
-64.3363425529
 10
349.8678151892
 20
-61.537627659
 10
350.2534861196
 20
-58.7892306913
 10
350.4856428299
 20
-56.1045415636
 10
350.563154276
 20
-53.4966398115
  0
LWPOLYLINE
  5
FE
330
1F
100
AcDbEntity
  8
0
  6
Continuous
 62
     7
370
    25
100
AcDbPolyline
 90
       76
 70
   128
 43
0.0
 10
508.6015198712
 20
-73.7027405791
 10
508.5234022964
 20
-71.505363478
 10
508.2895975109
 20
-69.2332067664
 10
507.9017454872
 20
-66.9022079913
 10
507.3625667285
 20
-64.528717434
 10
506.6758431865
 20
-62.1293834256
 10
505.8463917333
 20
-59.7210355703
 10
504.8800303751
 20
-57.3205666977
 10
503.7835374423
 20
-54.9448143724
 10
502.564604045
 20
-52.6104427899
 10
501.2317801254
 20
-50.3338258896
 10
499.7944144854
 20
-48.1309325033
 10
498.2625892123
 20
-46.0172143454
 10
496.6470489599
 20
-44.00749763
 10
494.9591255822
 20
-42.1158790759
 10
493.2106586489
 20
-40.3556270282
 10
491.4139123993
 20
-38.7390883902
 10
489.5814897174
 20
-37.2776020189
 10
487.7262437316
 20
-35.9814191913
 10
485.8611876597
 20
-34.8596316985
 10
483.9994035299
 20
-33.9201080737
 10
482.1539504201
 20
-33.1694384002
 10
480.3377728581
 20
-32.6128880864
 10
478.5636100244
 20
-32.2543609329
 10
476.8439063966
 20
-32.09637175
 10
475.1907244601
 20
-32.1400287182
 10
473.6156600983
 20
-32.3850256155
 10
472.1297612561
 20
-32.8296439645
 10
470.7434504461
 20
-33.470765087
 10
469.4664516428
 20
-34.303891979
 10
468.307722075
 20
-35.3231808538
 10
467.2753893984
 20
-36.5214821325
 10
466.3766946847
 20
-37.8903905926
 10
465.6179416318
 20
-39.4203043246
 10
465.0044523471
 20
-41.1004920832
 10
464.5405300172
 20
-42.9191685582
 10
464.2294287238
 20
-44.8635770411
 10
464.0733306192
 20
-46.9200789033
 10
464.0733306192
 20
-49.0742492618
 10
464.2294287238
 20
-51.3109781594
 10
464.5405300172
 20
-53.6145765499
 10
465.0044523471
 20
-55.9688863459
 10
465.6179416318
 20
-58.3573937555
 10
466.3766946847
 20
-60.7633451155
 10
467.2753893984
 20
-63.1698644057
 10
468.307722075
 20
-65.5600716225
 10
469.4664516428
 20
-67.9172011795
 10
470.7434504461
 20
-70.2247195065
 10
472.1297612561
 20
-72.4664410205
 10
473.6156600983
 20
-74.6266416555
 10
475.1907244601
 20
-76.6901691564
 10
476.8439063966
 20
-78.6425493603
 10
478.5636100244
 20
-80.4700877228
 10
480.3377728581
 20
-82.1599653755
 10
482.1539504201
 20
-83.7003290408
 10
483.9994035299
 20
-85.0803741743
 10
485.8611876597
 20
-86.290420751
 10
487.7262437316
 20
-87.3219811635
 10
489.5814897174
 20
-88.1678197567
 10
491.4139123993
 20
-88.8220035807
 10
493.2106586489
 20
-89.279944006
 10
494.9591255822
 20
-89.5384289094
 10
496.6470489599
 20
-89.5956452051
 10
498.2625892123
 20
-89.451191562
 10
499.7944144854
 20
-89.1060812184
 10
501.2317801254
 20
-88.5627348756
 10
502.564604045
 20
-87.8249637178
 10
503.7835374423
 20
-86.8979426794
 10
504.8800303751
 20
-85.788174147
 10
505.8463917333
 20
-84.5034423496
 10
506.6758431865
 20
-83.0527587576
 10
507.3625667285
 20
-81.446298874
 10
507.9017454872
 20
-79.6953308608
 10
508.2895975109
 20
-77.8121365004
 10
508.5234022964
 20
-75.8099250483
 10
508.6015198712
 20
-73.7027405791
  0
LWPOLYLINE
  5
FF
330
1F
100
AcDbEntity
  8
0
  6
Continuous
 62
     7
370
    25
100
AcDbPolyline
 90
       69
 70
   128
 43
0.0
 10
504.5003005403
 20
-71.3351570548
 10
504.4227792436
 20
-69.3541443173
 10
504.1908767377
 20
-67.3005286979
 10
503.8065715332
 20
-65.191830921
 10
503.2731423865
 20
-63.0460416526
 10
502.595140327
 20
-60.88146801
 10
501.7783498292
 20
-58.7165773725
 10
500.8297394617
 20
-56.5698398235
 10
499.7574024336
 20
-54.459570571
 10
498.5704875464
 20
-52.4037736882
 10
497.2791211394
 20
-50.4199885091
 10
495.8943206955
 20
-48.5251399896
 10
494.4279008437
 20
-46.735394309
 10
492.8923725613
 20
-45.0660209464
 10
491.300836434
 20
-43.5312624069
 10
489.6668708871
 20
-42.144212709
 10
488.0044163383
 20
-40.9167056718
 10
486.3276562638
 20
-39.8592139525
 10
484.6508961893
 20
-38.9807596975
 10
482.9884416405
 20
-38.2888375689
 10
481.3544760936
 20
-37.7893508023
 10
479.7629399663
 20
-37.4865608427
 10
478.2274116839
 20
-37.3830509872
 10
476.7609918321
 20
-37.4797043455
 10
475.3761913882
 20
-37.7756963051
 10
474.0848249812
 20
-38.268501567
 10
472.897910094
 20
-38.9539156905
 10
471.8255730659
 20
-39.826090964
 10
470.8769626984
 20
-40.8775862955
 10
470.0601722006
 20
-42.0994306976
 10
469.3821701411
 20
-43.4811998247
 10
468.8487409944
 20
-45.0111049098
 10
468.4644357899
 20
-46.6760933422
 10
468.232533284
 20
-48.4619600275
 10
468.1550119873
 20
-50.353468581
 10
468.232533284
 20
-52.3344813185
 10
468.4644357899
 20
-54.3880969379
 10
468.8487409944
 20
-56.4967947148
 10
469.3821701411
 20
-58.6425839832
 10
470.0601722006
 20
-60.8071576258
 10
470.8769626984
 20
-62.9720482634
 10
471.8255730659
 20
-65.1187858123
 10
472.897910094
 20
-67.2290550648
 10
474.0848249812
 20
-69.2848519477
 10
475.3761913882
 20
-71.2686371267
 10
476.7609918321
 20
-73.1634856463
 10
478.2274116839
 20
-74.9532313269
 10
479.7629399663
 20
-76.6226046894
 10
481.3544760936
 20
-78.157363229
 10
482.9884416405
 20
-79.5444129269
 10
484.6508961893
 20
-80.7719199641
 10
486.3276562638
 20
-81.8294116834
 10
488.0044163383
 20
-82.7078659383
 10
489.6668708871
 20
-83.3997880669
 10
491.300836434
 20
-83.8992748335
 10
492.8923725613
 20
-84.2020647931
 10
494.4279008437
 20
-84.3055746486
 10
495.8943206955
 20
-84.2089212904
 10
497.2791211394
 20
-83.9129293308
 10
498.5704875464
 20
-83.4201240688
 10
499.7574024336
 20
-82.7347099453
 10
500.8297394617
 20
-81.8625346719
 10
501.7783498292
 20
-80.8110393404
 10
502.595140327
 20
-79.5891949382
 10
503.2731423865
 20
-78.2074258111
 10
503.8065715332
 20
-76.677520726
 10
504.1908767377
 20
-75.0125322937
 10
504.4227792436
 20
-73.2266656083
 10
504.5003005403
 20
-71.3351570548
  0
LWPOLYLINE
  5
100
330
1F
100
AcDbEntity
  8
0
  6
Continuous
 62
     7
370
    25
100
AcDbPolyline
 90
       19
 70
   128
 43
0.0
 10
331.4002033721
 20
-6.5420265764
 10
331.3561888413
 20
-6.0895765627
 10
331.1044590889
 20
-5.3798336723
 10
330.6372490414
 20
-4.7074446181
 10
329.9695752143
 20
-4.0940205375
 10
329.1228971936
 20
-3.5592773853
 10
328.1244279077
 20
-3.1204022462
 10
327.0062589809
 20
-2.7915009285
 10
325.8043292826
 20
-2.583144591
 10
324.5572698222
 20
-2.5020299779
 10
323.3051621168
 20
-2.5507641796
 10
322.0882499384
 20
-2.7277808388
 10
320.9456458456
 20
-3.0273904944
 10
319.9140740742
 20
-3.4399634454
 10
319.0266901896
 20
-3.9522392579
 10
318.31201544
 20
-4.5477529657
 10
317.7930200599
 20
-5.2073642682
 10
317.4863849879
 20
-5.9098727155
 10
317.4002033721
 20
-6.5420265764
  0
ENDSEC
  0
SECTION
  2
OBJECTS
  0
DICTIONARY
  5
C
330
0
100
AcDbDictionary
281
     1
  3
ACAD_GROUP
350
D
  3
ACAD_LAYOUT
350
1A
  3
ACAD_MLINESTYLE
350
17
  3
ACAD_PLOTSETTINGS
350
19
  3
ACAD_PLOTSTYLENAME
350
E
  3
ACAD_SCALELIST
350
47
  3
DWGPROPS
350
101
  0
DICTIONARY
  5
D
102
{ACAD_REACTORS
330
C
102
}
330
C
100
AcDbDictionary
281
     1
  0
DICTIONARY
  5
1A
102
{ACAD_REACTORS
330
C
102
}
330
C
100
AcDbDictionary
281
     1
  3
Layout1
350
1E
  3
Layout2
350
26
  3
Model
350
22
  0
DICTIONARY
  5
17
102
{ACAD_REACTORS
330
C
102
}
330
C
100
AcDbDictionary
281
     1
  3
Standard
350
18
  0
DICTIONARY
  5
19
102
{ACAD_REACTORS
330
C
102
}
330
C
100
AcDbDictionary
281
     1
  0
ACDBDICTIONARYWDFLT
  5
E
102
{ACAD_REACTORS
330
C
102
}
330
C
100
AcDbDictionary
281
     1
  3
Normal
350
F
100
AcDbDictionaryWithDefault
340
F
  0
DICTIONARY
  5
47
102
{ACAD_REACTORS
330
C
102
}
330
C
100
AcDbDictionary
281
     1
  3
A0
350
48
  3
A1
350
49
  3
A2
350
4A
  3
A3
350
4B
  3
A4
350
4C
  3
A5
350
4D
  3
A6
350
4E
  3
A7
350
4F
  3
A8
350
50
  3
A9
350
51
  3
B0
350
52
  3
B1
350
53
  3
B2
350
54
  3
B3
350
55
  3
B4
350
56
  3
B5
350
57
  3
B6
350
58
  3
B7
350
59
  3
B8
350
5A
  3
B9
350
5B
  3
C0
350
5C
  3
C1
350
5D
  3
C2
350
5E
  3
C3
350
5F
  3
C4
350
60
  3
C5
350
61
  3
C6
350
62
  3
C7
350
63
  3
C8
350
64
  3
C9
350
65
  3
D0
350
66
  3
D1
350
67
  3
D2
350
68
  0
XRECORD
  5
101
102
{ACAD_REACTORS
330
C
102
}
330
C
100
AcDbXrecord
280
     1
  1
DWGPROPS COOKIE
  2

  3

  4

  6

  7

  8
b.kav
  9

300
=
301
=
302
=
303
=
304
=
305
=
306
=
307
=
308
=
309
=
 40
0.0
 41
2459741.481101921
 42
2459741.481102107
  1

 90
        0
  0
LAYOUT
  5
1E
102
{ACAD_REACTORS
330
1A
102
}
330
1A
100
AcDbPlotSettings
  1

  2
none_device
  4

  6

 40
0.0
 41
0.0
 42
0.0
 43
0.0
 44
0.0
 45
0.0
 46
0.0
 47
0.0
 48
0.0
 49
0.0
140
0.0
141
0.0
142
1.0
143
1.0
 70
   688
 72
     1
 73
     0
 74
     5
  7

 75
    16
147
1.0
148
0.0
149
0.0
100
AcDbLayout
  1
Layout1
 70
     1
 71
     1
 10
0.0
 20
0.0
 11
420.0
 21
297.0
 12
0.0
 22
0.0
 32
0.0
 14
1.0000000000E+20
 24
1.0000000000E+20
 34
1.0000000000E+20
 15
-1.0000000000E+20
 25
-1.0000000000E+20
 35
-1.0000000000E+20
146
0.0
 13
0.0
 23
0.0
 33
0.0
 16
1.0
 26
0.0
 36
0.0
 17
0.0
 27
1.0
 37
0.0
 76
     0
330
1B
  0
LAYOUT
  5
26
102
{ACAD_REACTORS
330
1A
102
}
330
1A
100
AcDbPlotSettings
  1

  2
none_device
  4

  6

 40
0.0
 41
0.0
 42
0.0
 43
0.0
 44
0.0
 45
0.0
 46
0.0
 47
0.0
 48
0.0
 49
0.0
140
0.0
141
0.0
142
1.0
143
1.0
 70
   688
 72
     1
 73
     0
 74
     5
  7

 75
    16
147
1.0
148
0.0
149
0.0
100
AcDbLayout
  1
Layout2
 70
     1
 71
     2
 10
0.0
 20
0.0
 11
0.0
 21
0.0
 12
0.0
 22
0.0
 32
0.0
 14
0.0
 24
0.0
 34
0.0
 15
0.0
 25
0.0
 35
0.0
146
0.0
 13
0.0
 23
0.0
 33
0.0
 16
1.0
 26
0.0
 36
0.0
 17
0.0
 27
1.0
 37
0.0
 76
     0
330
23
  0
LAYOUT
  5
22
102
{ACAD_REACTORS
330
1A
102
}
330
1A
100
AcDbPlotSettings
  1

  2
none_device
  4
Letter_(8.50_x_11.00_Inches)
  6

 40
6.35
 41
6.35
 42
6.35000508
 43
6.35000508
 44
215.9
 45
279.4
 46
0.0
 47
0.0
 48
0.0
 49
0.0
140
0.0
141
0.0
142
1.0
143
1.0
 70
  1712
 72
     1
 73
     0
 74
     0
  7

 75
     0
147
1.0
148
0.0
149
0.0
100
AcDbLayout
  1
Model
 70
     1
 71
     0
 10
0.0
 20
0.0
 11
279.4
 21
215.9
 12
0.0
 22
0.0
 32
0.0
 14
0.0
 24
0.0
 34
0.0
 15
279.4
 25
215.9
 35
0.0
146
0.0
 13
0.0
 23
0.0
 33
0.0
 16
1.0
 26
0.0
 36
0.0
 17
0.0
 27
1.0
 37
0.0
 76
     0
330
1F
331
29
  0
MLINESTYLE
  5
18
102
{ACAD_REACTORS
330
17
102
}
330
17
100
AcDbMlineStyle
  2
Standard
 70
     0
  3

 62
   256
 51
90.0
 52
90.0
 71
     2
 49
0.5
 62
   256
  6
BYLAYER
 49
-0.5
 62
   256
  6
BYLAYER
  0
ACDBPLACEHOLDER
  5
F
102
{ACAD_REACTORS
330
E
102
}
330
E
  0
SCALE
  5
48
102
{ACAD_REACTORS
330
47
102
}
330
47
100
AcDbScale
 70
     0
300
1:1
140
1.0
141
1.0
290
     1
  0
SCALE
  5
49
102
{ACAD_REACTORS
330
47
102
}
330
47
100
AcDbScale
 70
     0
300
1:2
140
1.0
141
2.0
290
     0
  0
SCALE
  5
4A
102
{ACAD_REACTORS
330
47
102
}
330
47
100
AcDbScale
 70
     0
300
1:4
140
1.0
141
4.0
290
     0
  0
SCALE
  5
4B
102
{ACAD_REACTORS
330
47
102
}
330
47
100
AcDbScale
 70
     0
300
1:5
140
1.0
141
5.0
290
     0
  0
SCALE
  5
4C
102
{ACAD_REACTORS
330
47
102
}
330
47
100
AcDbScale
 70
     0
300
1:8
140
1.0
141
8.0
290
     0
  0
SCALE
  5
4D
102
{ACAD_REACTORS
330
47
102
}
330
47
100
AcDbScale
 70
     0
300
1:10
140
1.0
141
10.0
290
     0
  0
SCALE
  5
4E
102
{ACAD_REACTORS
330
47
102
}
330
47
100
AcDbScale
 70
     0
300
1:16
140
1.0
141
16.0
290
     0
  0
SCALE
  5
4F
102
{ACAD_REACTORS
330
47
102
}
330
47
100
AcDbScale
 70
     0
300
1:20
140
1.0
141
20.0
290
     0
  0
SCALE
  5
50
102
{ACAD_REACTORS
330
47
102
}
330
47
100
AcDbScale
 70
     0
300
1:30
140
1.0
141
30.0
290
     0
  0
SCALE
  5
51
102
{ACAD_REACTORS
330
47
102
}
330
47
100
AcDbScale
 70
     0
300
1:40
140
1.0
141
40.0
290
     0
  0
SCALE
  5
52
102
{ACAD_REACTORS
330
47
102
}
330
47
100
AcDbScale
 70
     0
300
1:50
140
1.0
141
50.0
290
     0
  0
SCALE
  5
53
102
{ACAD_REACTORS
330
47
102
}
330
47
100
AcDbScale
 70
     0
300
1:100
140
1.0
141
100.0
290
     0
  0
SCALE
  5
54
102
{ACAD_REACTORS
330
47
102
}
330
47
100
AcDbScale
 70
     0
300
2:1
140
2.0
141
1.0
290
     0
  0
SCALE
  5
55
102
{ACAD_REACTORS
330
47
102
}
330
47
100
AcDbScale
 70
     0
300
4:1
140
4.0
141
1.0
290
     0
  0
SCALE
  5
56
102
{ACAD_REACTORS
330
47
102
}
330
47
100
AcDbScale
 70
     0
300
8:1
140
8.0
141
1.0
290
     0
  0
SCALE
  5
57
102
{ACAD_REACTORS
330
47
102
}
330
47
100
AcDbScale
 70
     0
300
10:1
140
10.0
141
1.0
290
     0
  0
SCALE
  5
58
102
{ACAD_REACTORS
330
47
102
}
330
47
100
AcDbScale
 70
     0
300
100:1
140
100.0
141
1.0
290
     0
  0
SCALE
  5
59
102
{ACAD_REACTORS
330
47
102
}
330
47
100
AcDbScale
 70
     0
300
1/128" = 1'-0"
140
0.0078125
141
12.0
290
     0
  0
SCALE
  5
5A
102
{ACAD_REACTORS
330
47
102
}
330
47
100
AcDbScale
 70
     0
300
1/64" = 1'-0"
140
0.015625
141
12.0
290
     0
  0
SCALE
  5
5B
102
{ACAD_REACTORS
330
47
102
}
330
47
100
AcDbScale
 70
     0
300
1/32" = 1'-0"
140
0.03125
141
12.0
290
     0
  0
SCALE
  5
5C
102
{ACAD_REACTORS
330
47
102
}
330
47
100
AcDbScale
 70
     0
300
1/16" = 1'-0"
140
0.0625
141
12.0
290
     0
  0
SCALE
  5
5D
102
{ACAD_REACTORS
330
47
102
}
330
47
100
AcDbScale
 70
     0
300
3/32" = 1'-0"
140
0.09375
141
12.0
290
     0
  0
SCALE
  5
5E
102
{ACAD_REACTORS
330
47
102
}
330
47
100
AcDbScale
 70
     0
300
1/8" = 1'-0"
140
0.125
141
12.0
290
     0
  0
SCALE
  5
5F
102
{ACAD_REACTORS
330
47
102
}
330
47
100
AcDbScale
 70
     0
300
3/16" = 1'-0"
140
0.1875
141
12.0
290
     0
  0
SCALE
  5
60
102
{ACAD_REACTORS
330
47
102
}
330
47
100
AcDbScale
 70
     0
300
1/4" = 1'-0"
140
0.25
141
12.0
290
     0
  0
SCALE
  5
61
102
{ACAD_REACTORS
330
47
102
}
330
47
100
AcDbScale
 70
     0
300
3/8" = 1'-0"
140
0.375
141
12.0
290
     0
  0
SCALE
  5
62
102
{ACAD_REACTORS
330
47
102
}
330
47
100
AcDbScale
 70
     0
300
1/2" = 1'-0"
140
0.5
141
12.0
290
     0
  0
SCALE
  5
63
102
{ACAD_REACTORS
330
47
102
}
330
47
100
AcDbScale
 70
     0
300
3/4" = 1'-0"
140
0.75
141
12.0
290
     0
  0
SCALE
  5
64
102
{ACAD_REACTORS
330
47
102
}
330
47
100
AcDbScale
 70
     0
300
1" = 1'-0"
140
1.0
141
12.0
290
     0
  0
SCALE
  5
65
102
{ACAD_REACTORS
330
47
102
}
330
47
100
AcDbScale
 70
     0
300
1-1/2" = 1'-0"
140
1.5
141
12.0
290
     0
  0
SCALE
  5
66
102
{ACAD_REACTORS
330
47
102
}
330
47
100
AcDbScale
 70
     0
300
3" = 1'-0"
140
3.0
141
12.0
290
     0
  0
SCALE
  5
67
102
{ACAD_REACTORS
330
47
102
}
330
47
100
AcDbScale
 70
     0
300
6" = 1'-0"
140
6.0
141
12.0
290
     0
  0
SCALE
  5
68
102
{ACAD_REACTORS
330
47
102
}
330
47
100
AcDbScale
 70
     0
300
1'-0" = 1'-0"
140
12.0
141
12.0
290
     0
  0
ENDSEC
  0
EOF
